Wueby! a Rede Social

Wueby! a Rede Social
Crie Uma Conta no Wueby! a Rede Social Brasileira!

terça-feira

Purify - Metallica

Dropped D and tuned down a step (Dropped C)

Riff 1

d------------------------------------------------------------
A------------------------------------------------------------
F------------------------------------------------------------
C-------3--3-3----3-3----3/5-5-0-----------------------------
G--x-x--3--3-3-x--3-3-x--3/5-5-0-----------------------------
C--x-x--3--3-3-x--3-3-x--3/5-5-0-----------------------------



Riff 2 (lightly palm muted)

d------------------------------------------------------------
A------------------------------------------------------------
F------------------------------------------------------------
C--0-0---0-0---0-0---0-0---0-0---0-0---0-0---0-0---0-0-------
G--0-0---0-0---0-0---0-0---0-0---0-0---0-0---0-0---0-0-------
C--0-0---0-0---0-0---0-0---0-0---0-0---0-0---0-0---0-0-------



Verse

d------------------------------------------------------------
A------------------------------------------------------------
F------------------------------------------------------------
C--4-4-5-5-7--0---4-4-5-5-7--0--4-4-5-5-7--0---4-4-5-5-7--0--
G--4-4-5-5-7--0---4-4-5-5-7--0--4-4-5-5-7--0---4-4-5-5-7--0--
C--4-4-5-5-7--0---4-4-5-5-7--0--4-4-5-5-7--0---4-4-5-5-7--0--



Pre-Chorus

d------------------------------------------------------------
A------------------------------------------------------------
F------------------------------------------------------------
C--7-7-7-7-7-7-7-7--6-6-6-6-6-6-6-6--5-5-5-5-5-5-5-5---------
G--7-7-7-7-7-7-7-7--6-6-6-6-6-6-6-6--5-5-5-5-5-5-5-5---------
C--7-7-7-7-7-7-7-7--6-6-6-6-6-6-6-6--5-5-5-5-5-5-5-5---------


(continued)

d------------------------------------------------------------
A------------------------------------------------------------
F------------------------------------------------------------
C--6-6-6-6-6-6-6-6-------------------------------------------
G--6-6-6-6-6-6-6-6-------------------------------------------
C--6-6-6-6-6-6-6-6-------------------------------------------



Chorus

d------------------------------------------------------------
A------------------------------------------------------------
F------------------------------------------------------------
C--1-2-3----1-2-3----1-2-3----1-2-3--------------------------
G--1-2-3----1-2-3----1-2-3----1-2-3--------------------------
C--1-2-3----1-2-3----1-2-3----1-2-3--------------------------



Bridge 1 (palm muted)

d------------------------------------------------------------
A------------------------------------------------------------
F------------------------------------------------------------
C------------------------------------------------------------
G--0-0-3-0-3-0-0-3-0-0-3-0-3-0-0-0-3-0-3-0-0-3-0-0-3-0-3-0---
C--0-0-3-0-3-0-0-3-0-0-3-0-3-0-0-0-3-0-3-0-0-3-0-0-3-0-3-0---



Bridge 2 (palm muted)

d------------------------------------------------------------
A------------------------------------------------------------
F------------------------------------------------------------
C------------------------------------------------------------
G--0-0-12-0-12-0-0-12-0-0-12-0-12-15^------------------------
C--0-0-12-0-12-0-0-12-0-0-12-0-12-15^------------------------



Bridge 3

d------------------------------------------------------------
A------------------------------------------------------------
F------------------------------------------------------------
C---7-7-7-7--3-3-3-3--5--0-0-0-0--12p0--12p0--12h15^---------
G---7-7-7-7--3-3-3-3--5--0-0-0-0--12p0--12p0--12h15^---------
C---7-7-7-7--3-3-3-3--5--0-0-0-0--12p0--12p0--12h15^---------


(continued)

d------------------------------------------------------------
A------------------------------------------------------------
F------------5-5-5-5-----------------------------------------
C---7-7-7-7--5-5-5-5--5--0-0-0-0--12p0--12p0--12h15^---------
G---7-7-7-7--3-3-3-3--5--0-0-0-0--12p0--12p0--12h15^---------
C---7-7-7-7-----------5--0-0-0-0--12p0--12p0--12h15^---------



Bridge 4

d------------------------------------------------------------
A------------------------------------------------------------
F------------------------------------------------------------
C--3--0-3h5-0---3--0-3h5-0---3--0-3h5-0---3--0-3h5-0---------
G--3--0-3h5-0---3--0-3h5-0---3--0-3h5-0---3--0-3h5-0---------
C--3--0-3h5-0---3--0-3h5-0---3--0-3h5-0---3--0-3h5-0---------



Outro

d------------------------------------------------------------
A------------------------------------------------------------
F------------------------------------------------------------
C------------------------------------------------------------
G---------3--5--0m-0m-0m-----------3--5--0m-0m-0m------------
C--0h5h7--------0m-0m-0m----0h5h7--------0m-0m-0m------------


(continued)

d------------------------------------------------------------
A------------------------------------------------------------
F------------------------------------------------------------
C------------------------------------------------------------
G---------3--5--0m-0m-0m-----------3--5--0m-0m-0m------------
C--0h5h7--------0m-0m-0m----0h5h7--------0m-0m-0m------------


(continued)

d------------------------------------------------------------
A------------------------------------------------------------
F------------------------------------------------------------
C------------------------------------------------------------
G---8--8--8---5----8--8--8---5-------------------------------
C--10-10-10-------10-10-10----------------------------------

Nenhum comentário: