Wueby! a Rede Social

Wueby! a Rede Social
Crie Uma Conta no Wueby! a Rede Social Brasileira!

terça-feira

I Saw You Saying - "Lavô Tá Novo"

Introdução: B D A A G A
e--------------------------------
B--------------------------------
G-6h9---6-------6...-------------
D-----7-----7-9------9-7-7h9-7---
A---------9----------------------
E--------------------------------
A F#m A F#m
Reconheci... a Madona ali parada no jardim
A F#m A F#m C#m
Não resisti... fui perguntar o que ela achava de mim
D Bm
Eu não sei falar inglês
E A
Ela não entende uma palavra em português
F#m AI
saw you saying that you say that you saw
F#m BmI saw you saying that you say that you saw (I fell good)
D Bm
I feel good because you put your butt on me
D A
I feel good because you put your butt on me
e--------------------------------------------------------------------------
B------------------------------10-7---7---7--------------------------------
G-6h9---6-------6...----------------9----6--9-6-------6...-----------------
D-----7-----7-9------9-7-7h9-7----------7---------7-9-------9-7-7h9-7------
A---------9-------------------------------------9--------------------------
E--------------------------------------------------------------------------
C#m D Bm
Perguntei para o meu pai
E
O que ela disse
A
Ela disse, meu rapaz:
F#m A
I saw you saying that you say that you saw
F#m Bm
I saw you saying that you say that you saw (I fell good)
D Bm
I feel good because you put your butt on me
D Bm
I feel good because you put your butt on me
D
I feel good because you put your butt on...
Solo
F#m A
The hula hula song make me feel so strong
F#m A
The hula hula hey goodbye I'm going away
F#m A
The hula hula song make me feel so strong
F#m Bm D
The hula hula hey goodbye I'm going away
Bm D
Because you put your butt on me
Bm D
You know you put your butt on me
A F#m Bm C#m A
You know you put your butt on me
Fonte: http://www.bandaraimundos.hpg.ig.com.br/cisaw.htm

Nenhum comentário: